ISO-10303-21;
HEADER;
/* Generated by software containing ST-Developer
 * from STEP Tools, Inc. (www.steptools.com) 
 */

FILE_DESCRIPTION(
/* description */ (''),
/* implementation_level */ '2;1');

FILE_NAME(
/* name */ 
'C:/Users/progr/Desktop/solidcore/updated parts/Carriage Clip.step',
/* time_stamp */ '2021-01-17T11:53:37-06:00',
/* author */ (''),
/* organization */ (''),
/* preprocessor_version */ 'ST-DEVELOPER v18.1',
/* originating_system */ 'Autodesk Translation Framework v9.7.1.1290',
/* authorisation */ '');

FILE_SCHEMA (('AUTOMOTIVE_DESIGN { 1 0 10303 214 3 1 1 }'));
ENDSEC;

DATA;
#10=MECHANICAL_DESIGN_GEOMETRIC_PRESENTATION_REPRESENTATION('',(#13),#471);
#11=SHAPE_REPRESENTATION_RELATIONSHIP('SRR','None',#481,#12);
#12=ADVANCED_BREP_SHAPE_REPRESENTATION('',(#14),#470);
#13=STYLED_ITEM('',(#490),#14);
#14=MANIFOLD_SOLID_BREP('Body1',#283);
#15=FACE_BOUND('',#51,.T.);
#16=FACE_BOUND('',#53,.T.);
#17=CIRCLE('',#302,0.059);
#18=CIRCLE('',#303,0.059);
#19=CIRCLE('',#306,0.0589999999999999);
#20=CIRCLE('',#307,0.0589999999999999);
#21=CYLINDRICAL_SURFACE('',#301,0.059);
#22=CYLINDRICAL_SURFACE('',#305,0.0589999999999999);
#23=FACE_OUTER_BOUND('',#39,.T.);
#24=FACE_OUTER_BOUND('',#40,.T.);
#25=FACE_OUTER_BOUND('',#41,.T.);
#26=FACE_OUTER_BOUND('',#42,.T.);
#27=FACE_OUTER_BOUND('',#43,.T.);
#28=FACE_OUTER_BOUND('',#44,.T.);
#29=FACE_OUTER_BOUND('',#45,.T.);
#30=FACE_OUTER_BOUND('',#46,.T.);
#31=FACE_OUTER_BOUND('',#47,.T.);
#32=FACE_OUTER_BOUND('',#48,.T.);
#33=FACE_OUTER_BOUND('',#49,.T.);
#34=FACE_OUTER_BOUND('',#50,.T.);
#35=FACE_OUTER_BOUND('',#52,.T.);
#36=FACE_OUTER_BOUND('',#54,.T.);
#37=FACE_OUTER_BOUND('',#55,.T.);
#38=FACE_OUTER_BOUND('',#56,.T.);
#39=EDGE_LOOP('',(#181,#182,#183,#184));
#40=EDGE_LOOP('',(#185,#186,#187,#188,#189,#190,#191,#192,#193,#194));
#41=EDGE_LOOP('',(#195,#196,#197,#198));
#42=EDGE_LOOP('',(#199,#200,#201,#202));
#43=EDGE_LOOP('',(#203,#204,#205,#206));
#44=EDGE_LOOP('',(#207));
#45=EDGE_LOOP('',(#208,#209,#210,#211));
#46=EDGE_LOOP('',(#212));
#47=EDGE_LOOP('',(#213,#214,#215,#216));
#48=EDGE_LOOP('',(#217,#218,#219,#220));
#49=EDGE_LOOP('',(#221,#222,#223,#224));
#50=EDGE_LOOP('',(#225,#226,#227,#228));
#51=EDGE_LOOP('',(#229));
#52=EDGE_LOOP('',(#230,#231,#232,#233));
#53=EDGE_LOOP('',(#234));
#54=EDGE_LOOP('',(#235,#236,#237,#238,#239,#240,#241,#242,#243,#244));
#55=EDGE_LOOP('',(#245,#246,#247,#248));
#56=EDGE_LOOP('',(#249,#250,#251,#252));
#57=LINE('',#395,#89);
#58=LINE('',#397,#90);
#59=LINE('',#399,#91);
#60=LINE('',#400,#92);
#61=LINE('',#403,#93);
#62=LINE('',#405,#94);
#63=LINE('',#407,#95);
#64=LINE('',#409,#96);
#65=LINE('',#411,#97);
#66=LINE('',#413,#98);
#67=LINE('',#415,#99);
#68=LINE('',#417,#100);
#69=LINE('',#418,#101);
#70=LINE('',#421,#102);
#71=LINE('',#422,#103);
#72=LINE('',#425,#104);
#73=LINE('',#426,#105);
#74=LINE('',#431,#106);
#75=LINE('',#438,#107);
#76=LINE('',#443,#108);
#77=LINE('',#445,#109);
#78=LINE('',#446,#110);
#79=LINE('',#449,#111);
#80=LINE('',#451,#112);
#81=LINE('',#452,#113);
#82=LINE('',#454,#114);
#83=LINE('',#457,#115);
#84=LINE('',#458,#116);
#85=LINE('',#461,#117);
#86=LINE('',#462,#118);
#87=LINE('',#464,#119);
#88=LINE('',#465,#120);
#89=VECTOR('',#321,0.393700787401575);
#90=VECTOR('',#322,0.393700787401575);
#91=VECTOR('',#323,0.393700787401575);
#92=VECTOR('',#324,0.393700787401575);
#93=VECTOR('',#327,0.393700787401575);
#94=VECTOR('',#328,0.393700787401575);
#95=VECTOR('',#329,0.393700787401575);
#96=VECTOR('',#330,0.393700787401575);
#97=VECTOR('',#331,0.393700787401575);
#98=VECTOR('',#332,0.393700787401575);
#99=VECTOR('',#333,0.393700787401575);
#100=VECTOR('',#334,0.393700787401575);
#101=VECTOR('',#335,0.393700787401575);
#102=VECTOR('',#338,0.393700787401575);
#103=VECTOR('',#339,0.393700787401575);
#104=VECTOR('',#342,0.393700787401575);
#105=VECTOR('',#343,0.393700787401575);
#106=VECTOR('',#348,0.059);
#107=VECTOR('',#357,0.0589999999999999);
#108=VECTOR('',#364,0.393700787401575);
#109=VECTOR('',#365,0.393700787401575);
#110=VECTOR('',#366,0.393700787401575);
#111=VECTOR('',#369,0.393700787401575);
#112=VECTOR('',#370,0.393700787401575);
#113=VECTOR('',#371,0.393700787401575);
#114=VECTOR('',#374,0.393700787401575);
#115=VECTOR('',#377,0.393700787401575);
#116=VECTOR('',#378,0.393700787401575);
#117=VECTOR('',#381,0.393700787401575);
#118=VECTOR('',#382,0.393700787401575);
#119=VECTOR('',#385,0.393700787401575);
#120=VECTOR('',#386,0.393700787401575);
#121=VERTEX_POINT('',#393);
#122=VERTEX_POINT('',#394);
#123=VERTEX_POINT('',#396);
#124=VERTEX_POINT('',#398);
#125=VERTEX_POINT('',#402);
#126=VERTEX_POINT('',#404);
#127=VERTEX_POINT('',#406);
#128=VERTEX_POINT('',#408);
#129=VERTEX_POINT('',#410);
#130=VERTEX_POINT('',#412);
#131=VERTEX_POINT('',#414);
#132=VERTEX_POINT('',#416);
#133=VERTEX_POINT('',#420);
#134=VERTEX_POINT('',#424);
#135=VERTEX_POINT('',#428);
#136=VERTEX_POINT('',#430);
#137=VERTEX_POINT('',#435);
#138=VERTEX_POINT('',#437);
#139=VERTEX_POINT('',#442);
#140=VERTEX_POINT('',#444);
#141=VERTEX_POINT('',#448);
#142=VERTEX_POINT('',#450);
#143=VERTEX_POINT('',#456);
#144=VERTEX_POINT('',#460);
#145=EDGE_CURVE('',#121,#122,#57,.T.);
#146=EDGE_CURVE('',#122,#123,#58,.T.);
#147=EDGE_CURVE('',#123,#124,#59,.T.);
#148=EDGE_CURVE('',#124,#121,#60,.T.);
#149=EDGE_CURVE('',#125,#123,#61,.T.);
#150=EDGE_CURVE('',#126,#125,#62,.T.);
#151=EDGE_CURVE('',#127,#126,#63,.T.);
#152=EDGE_CURVE('',#127,#128,#64,.T.);
#153=EDGE_CURVE('',#128,#129,#65,.T.);
#154=EDGE_CURVE('',#129,#130,#66,.T.);
#155=EDGE_CURVE('',#130,#131,#67,.T.);
#156=EDGE_CURVE('',#131,#132,#68,.T.);
#157=EDGE_CURVE('',#132,#124,#69,.T.);
#158=EDGE_CURVE('',#122,#133,#70,.T.);
#159=EDGE_CURVE('',#125,#133,#71,.T.);
#160=EDGE_CURVE('',#133,#134,#72,.T.);
#161=EDGE_CURVE('',#134,#126,#73,.T.);
#162=EDGE_CURVE('',#135,#135,#17,.T.);
#163=EDGE_CURVE('',#135,#136,#74,.T.);
#164=EDGE_CURVE('',#136,#136,#18,.T.);
#165=EDGE_CURVE('',#137,#137,#19,.T.);
#166=EDGE_CURVE('',#137,#138,#75,.T.);
#167=EDGE_CURVE('',#138,#138,#20,.T.);
#168=EDGE_CURVE('',#139,#130,#76,.T.);
#169=EDGE_CURVE('',#140,#139,#77,.T.);
#170=EDGE_CURVE('',#131,#140,#78,.T.);
#171=EDGE_CURVE('',#141,#128,#79,.T.);
#172=EDGE_CURVE('',#142,#141,#80,.T.);
#173=EDGE_CURVE('',#142,#129,#81,.T.);
#174=EDGE_CURVE('',#139,#142,#82,.T.);
#175=EDGE_CURVE('',#143,#127,#83,.T.);
#176=EDGE_CURVE('',#141,#143,#84,.T.);
#177=EDGE_CURVE('',#144,#140,#85,.T.);
#178=EDGE_CURVE('',#132,#144,#86,.T.);
#179=EDGE_CURVE('',#144,#121,#87,.T.);
#180=EDGE_CURVE('',#143,#134,#88,.T.);
#181=ORIENTED_EDGE('',*,*,#145,.T.);
#182=ORIENTED_EDGE('',*,*,#146,.T.);
#183=ORIENTED_EDGE('',*,*,#147,.T.);
#184=ORIENTED_EDGE('',*,*,#148,.T.);
#185=ORIENTED_EDGE('',*,*,#147,.F.);
#186=ORIENTED_EDGE('',*,*,#149,.F.);
#187=ORIENTED_EDGE('',*,*,#150,.F.);
#188=ORIENTED_EDGE('',*,*,#151,.F.);
#189=ORIENTED_EDGE('',*,*,#152,.T.);
#190=ORIENTED_EDGE('',*,*,#153,.T.);
#191=ORIENTED_EDGE('',*,*,#154,.T.);
#192=ORIENTED_EDGE('',*,*,#155,.T.);
#193=ORIENTED_EDGE('',*,*,#156,.T.);
#194=ORIENTED_EDGE('',*,*,#157,.T.);
#195=ORIENTED_EDGE('',*,*,#146,.F.);
#196=ORIENTED_EDGE('',*,*,#158,.T.);
#197=ORIENTED_EDGE('',*,*,#159,.F.);
#198=ORIENTED_EDGE('',*,*,#149,.T.);
#199=ORIENTED_EDGE('',*,*,#150,.T.);
#200=ORIENTED_EDGE('',*,*,#159,.T.);
#201=ORIENTED_EDGE('',*,*,#160,.T.);
#202=ORIENTED_EDGE('',*,*,#161,.T.);
#203=ORIENTED_EDGE('',*,*,#162,.F.);
#204=ORIENTED_EDGE('',*,*,#163,.T.);
#205=ORIENTED_EDGE('',*,*,#164,.T.);
#206=ORIENTED_EDGE('',*,*,#163,.F.);
#207=ORIENTED_EDGE('',*,*,#164,.F.);
#208=ORIENTED_EDGE('',*,*,#165,.F.);
#209=ORIENTED_EDGE('',*,*,#166,.T.);
#210=ORIENTED_EDGE('',*,*,#167,.T.);
#211=ORIENTED_EDGE('',*,*,#166,.F.);
#212=ORIENTED_EDGE('',*,*,#167,.F.);
#213=ORIENTED_EDGE('',*,*,#155,.F.);
#214=ORIENTED_EDGE('',*,*,#168,.F.);
#215=ORIENTED_EDGE('',*,*,#169,.F.);
#216=ORIENTED_EDGE('',*,*,#170,.F.);
#217=ORIENTED_EDGE('',*,*,#153,.F.);
#218=ORIENTED_EDGE('',*,*,#171,.F.);
#219=ORIENTED_EDGE('',*,*,#172,.F.);
#220=ORIENTED_EDGE('',*,*,#173,.T.);
#221=ORIENTED_EDGE('',*,*,#154,.F.);
#222=ORIENTED_EDGE('',*,*,#173,.F.);
#223=ORIENTED_EDGE('',*,*,#174,.F.);
#224=ORIENTED_EDGE('',*,*,#168,.T.);
#225=ORIENTED_EDGE('',*,*,#171,.T.);
#226=ORIENTED_EDGE('',*,*,#152,.F.);
#227=ORIENTED_EDGE('',*,*,#175,.F.);
#228=ORIENTED_EDGE('',*,*,#176,.F.);
#229=ORIENTED_EDGE('',*,*,#165,.T.);
#230=ORIENTED_EDGE('',*,*,#170,.T.);
#231=ORIENTED_EDGE('',*,*,#177,.F.);
#232=ORIENTED_EDGE('',*,*,#178,.F.);
#233=ORIENTED_EDGE('',*,*,#156,.F.);
#234=ORIENTED_EDGE('',*,*,#162,.T.);
#235=ORIENTED_EDGE('',*,*,#145,.F.);
#236=ORIENTED_EDGE('',*,*,#179,.F.);
#237=ORIENTED_EDGE('',*,*,#177,.T.);
#238=ORIENTED_EDGE('',*,*,#169,.T.);
#239=ORIENTED_EDGE('',*,*,#174,.T.);
#240=ORIENTED_EDGE('',*,*,#172,.T.);
#241=ORIENTED_EDGE('',*,*,#176,.T.);
#242=ORIENTED_EDGE('',*,*,#180,.T.);
#243=ORIENTED_EDGE('',*,*,#160,.F.);
#244=ORIENTED_EDGE('',*,*,#158,.F.);
#245=ORIENTED_EDGE('',*,*,#161,.F.);
#246=ORIENTED_EDGE('',*,*,#180,.F.);
#247=ORIENTED_EDGE('',*,*,#175,.T.);
#248=ORIENTED_EDGE('',*,*,#151,.T.);
#249=ORIENTED_EDGE('',*,*,#148,.F.);
#250=ORIENTED_EDGE('',*,*,#157,.F.);
#251=ORIENTED_EDGE('',*,*,#178,.T.);
#252=ORIENTED_EDGE('',*,*,#179,.T.);
#253=PLANE('',#297);
#254=PLANE('',#298);
#255=PLANE('',#299);
#256=PLANE('',#300);
#257=PLANE('',#304);
#258=PLANE('',#308);
#259=PLANE('',#309);
#260=PLANE('',#310);
#261=PLANE('',#311);
#262=PLANE('',#312);
#263=PLANE('',#313);
#264=PLANE('',#314);
#265=PLANE('',#315);
#266=PLANE('',#316);
#267=ADVANCED_FACE('',(#23),#253,.T.);
#268=ADVANCED_FACE('',(#24),#254,.T.);
#269=ADVANCED_FACE('',(#25),#255,.T.);
#270=ADVANCED_FACE('',(#26),#256,.T.);
#271=ADVANCED_FACE('',(#27),#21,.F.);
#272=ADVANCED_FACE('',(#28),#257,.T.);
#273=ADVANCED_FACE('',(#29),#22,.F.);
#274=ADVANCED_FACE('',(#30),#258,.T.);
#275=ADVANCED_FACE('',(#31),#259,.F.);
#276=ADVANCED_FACE('',(#32),#260,.F.);
#277=ADVANCED_FACE('',(#33),#261,.F.);
#278=ADVANCED_FACE('',(#34,#15),#262,.F.);
#279=ADVANCED_FACE('',(#35,#16),#263,.F.);
#280=ADVANCED_FACE('',(#36),#264,.T.);
#281=ADVANCED_FACE('',(#37),#265,.T.);
#282=ADVANCED_FACE('',(#38),#266,.T.);
#283=CLOSED_SHELL('',(#267,#268,#269,#270,#271,#272,#273,#274,#275,#276,
#277,#278,#279,#280,#281,#282));
#284=DERIVED_UNIT_ELEMENT(#286,1.);
#285=DERIVED_UNIT_ELEMENT(#475,-3.);
#286=(
MASS_UNIT()
NAMED_UNIT(*)
SI_UNIT(.KILO.,.GRAM.)
);
#287=DERIVED_UNIT((#284,#285));
#288=MEASURE_REPRESENTATION_ITEM('density measure',
POSITIVE_RATIO_MEASURE(7850.),#287);
#289=PROPERTY_DEFINITION_REPRESENTATION(#294,#291);
#290=PROPERTY_DEFINITION_REPRESENTATION(#295,#292);
#291=REPRESENTATION('material name',(#293),#470);
#292=REPRESENTATION('density',(#288),#470);
#293=DESCRIPTIVE_REPRESENTATION_ITEM('Steel','Steel');
#294=PROPERTY_DEFINITION('material property','material name',#483);
#295=PROPERTY_DEFINITION('material property','density of part',#483);
#296=AXIS2_PLACEMENT_3D('placement',#391,#317,#318);
#297=AXIS2_PLACEMENT_3D('',#392,#319,#320);
#298=AXIS2_PLACEMENT_3D('',#401,#325,#326);
#299=AXIS2_PLACEMENT_3D('',#419,#336,#337);
#300=AXIS2_PLACEMENT_3D('',#423,#340,#341);
#301=AXIS2_PLACEMENT_3D('',#427,#344,#345);
#302=AXIS2_PLACEMENT_3D('',#429,#346,#347);
#303=AXIS2_PLACEMENT_3D('',#432,#349,#350);
#304=AXIS2_PLACEMENT_3D('',#433,#351,#352);
#305=AXIS2_PLACEMENT_3D('',#434,#353,#354);
#306=AXIS2_PLACEMENT_3D('',#436,#355,#356);
#307=AXIS2_PLACEMENT_3D('',#439,#358,#359);
#308=AXIS2_PLACEMENT_3D('',#440,#360,#361);
#309=AXIS2_PLACEMENT_3D('',#441,#362,#363);
#310=AXIS2_PLACEMENT_3D('',#447,#367,#368);
#311=AXIS2_PLACEMENT_3D('',#453,#372,#373);
#312=AXIS2_PLACEMENT_3D('',#455,#375,#376);
#313=AXIS2_PLACEMENT_3D('',#459,#379,#380);
#314=AXIS2_PLACEMENT_3D('',#463,#383,#384);
#315=AXIS2_PLACEMENT_3D('',#466,#387,#388);
#316=AXIS2_PLACEMENT_3D('',#467,#389,#390);
#317=DIRECTION('axis',(0.,0.,1.));
#318=DIRECTION('refdir',(1.,0.,0.));
#319=DIRECTION('center_axis',(-0.707106781186548,0.,0.707106781186548));
#320=DIRECTION('ref_axis',(0.707106781186548,0.,0.707106781186548));
#321=DIRECTION('',(0.707106781186548,0.,0.707106781186548));
#322=DIRECTION('',(0.,1.,0.));
#323=DIRECTION('',(-0.707106781186548,0.,-0.707106781186548));
#324=DIRECTION('',(0.,-1.,0.));
#325=DIRECTION('center_axis',(0.,1.,0.));
#326=DIRECTION('ref_axis',(-1.,0.,0.));
#327=DIRECTION('',(-1.,0.,0.));
#328=DIRECTION('',(-0.707106781186548,0.,0.707106781186548));
#329=DIRECTION('',(0.,0.,1.));
#330=DIRECTION('',(-1.,0.,0.));
#331=DIRECTION('',(0.,0.,1.));
#332=DIRECTION('',(-1.,0.,0.));
#333=DIRECTION('',(0.,0.,-1.));
#334=DIRECTION('',(-1.,0.,0.));
#335=DIRECTION('',(0.,0.,1.));
#336=DIRECTION('center_axis',(0.,0.,1.));
#337=DIRECTION('ref_axis',(1.,0.,0.));
#338=DIRECTION('',(1.,0.,0.));
#339=DIRECTION('',(0.,-1.,0.));
#340=DIRECTION('center_axis',(0.707106781186548,0.,0.707106781186548));
#341=DIRECTION('ref_axis',(0.707106781186548,0.,-0.707106781186548));
#342=DIRECTION('',(0.707106781186548,0.,-0.707106781186548));
#343=DIRECTION('',(0.,1.,0.));
#344=DIRECTION('center_axis',(0.,0.,1.));
#345=DIRECTION('ref_axis',(-1.,0.,0.));
#346=DIRECTION('center_axis',(0.,0.,1.));
#347=DIRECTION('ref_axis',(-1.,0.,0.));
#348=DIRECTION('',(0.,0.,1.));
#349=DIRECTION('center_axis',(0.,0.,1.));
#350=DIRECTION('ref_axis',(-1.,0.,0.));
#351=DIRECTION('center_axis',(0.,0.,-1.));
#352=DIRECTION('ref_axis',(-1.,0.,0.));
#353=DIRECTION('center_axis',(0.,0.,1.));
#354=DIRECTION('ref_axis',(-1.,0.,0.));
#355=DIRECTION('center_axis',(0.,0.,1.));
#356=DIRECTION('ref_axis',(-1.,0.,0.));
#357=DIRECTION('',(0.,0.,1.));
#358=DIRECTION('center_axis',(0.,0.,1.));
#359=DIRECTION('ref_axis',(-1.,0.,0.));
#360=DIRECTION('center_axis',(0.,0.,-1.));
#361=DIRECTION('ref_axis',(-1.,0.,0.));
#362=DIRECTION('center_axis',(-1.,0.,0.));
#363=DIRECTION('ref_axis',(0.,0.,1.));
#364=DIRECTION('',(0.,1.,0.));
#365=DIRECTION('',(0.,0.,1.));
#366=DIRECTION('',(0.,-1.,0.));
#367=DIRECTION('center_axis',(1.,0.,0.));
#368=DIRECTION('ref_axis',(0.,0.,-1.));
#369=DIRECTION('',(0.,1.,0.));
#370=DIRECTION('',(0.,0.,-1.));
#371=DIRECTION('',(0.,1.,0.));
#372=DIRECTION('center_axis',(0.,0.,1.));
#373=DIRECTION('ref_axis',(1.,0.,0.));
#374=DIRECTION('',(1.,0.,0.));
#375=DIRECTION('center_axis',(0.,0.,1.));
#376=DIRECTION('ref_axis',(1.,0.,0.));
#377=DIRECTION('',(0.,1.,0.));
#378=DIRECTION('',(1.,0.,0.));
#379=DIRECTION('center_axis',(0.,0.,1.));
#380=DIRECTION('ref_axis',(1.,0.,0.));
#381=DIRECTION('',(1.,0.,0.));
#382=DIRECTION('',(0.,-1.,0.));
#383=DIRECTION('center_axis',(0.,-1.,0.));
#384=DIRECTION('ref_axis',(1.,0.,0.));
#385=DIRECTION('',(0.,0.,1.));
#386=DIRECTION('',(0.,0.,1.));
#387=DIRECTION('center_axis',(1.,0.,0.));
#388=DIRECTION('ref_axis',(0.,1.,0.));
#389=DIRECTION('center_axis',(-1.,0.,0.));
#390=DIRECTION('ref_axis',(0.,-1.,0.));
#391=CARTESIAN_POINT('',(0.,0.,0.));
#392=CARTESIAN_POINT('Origin',(0.0590551181102362,0.3,0.350944881889764));
#393=CARTESIAN_POINT('',(0.,0.,0.291889763779527));
#394=CARTESIAN_POINT('',(0.118110236220472,0.,0.41));
#395=CARTESIAN_POINT('',(-0.0434448818897638,2.18547839493141E-17,0.248444881889764));
#396=CARTESIAN_POINT('',(0.118110236220472,0.4,0.41));
#397=CARTESIAN_POINT('',(0.118110236220472,0.3,0.41));
#398=CARTESIAN_POINT('',(0.,0.4,0.291889763779527));
#399=CARTESIAN_POINT('',(0.176555118110236,0.4,0.468444881889764));
#400=CARTESIAN_POINT('',(0.,0.3,0.291889763779527));
#401=CARTESIAN_POINT('Origin',(0.88,0.4,0.));
#402=CARTESIAN_POINT('',(0.761889763779527,0.4,0.41));
#403=CARTESIAN_POINT('',(0.88,0.4,0.41));
#404=CARTESIAN_POINT('',(0.88,0.4,0.291889763779527));
#405=CARTESIAN_POINT('',(0.923444881889764,0.4,0.248444881889764));
#406=CARTESIAN_POINT('',(0.88,0.4,0.));
#407=CARTESIAN_POINT('',(0.88,0.4,0.));
#408=CARTESIAN_POINT('',(0.68,0.4,0.));
#409=CARTESIAN_POINT('',(0.88,0.4,0.));
#410=CARTESIAN_POINT('',(0.68,0.4,0.31));
#411=CARTESIAN_POINT('',(0.68,0.4,0.155));
#412=CARTESIAN_POINT('',(0.2,0.4,0.31));
#413=CARTESIAN_POINT('',(0.54,0.4,0.31));
#414=CARTESIAN_POINT('',(0.2,0.4,0.));
#415=CARTESIAN_POINT('',(0.2,0.4,0.));
#416=CARTESIAN_POINT('',(0.,0.4,0.));
#417=CARTESIAN_POINT('',(0.88,0.4,0.));
#418=CARTESIAN_POINT('',(0.,0.4,0.));
#419=CARTESIAN_POINT('Origin',(0.44,0.2,0.41));
#420=CARTESIAN_POINT('',(0.761889763779527,0.,0.41));
#421=CARTESIAN_POINT('',(0.,0.,0.41));
#422=CARTESIAN_POINT('',(0.761889763779527,0.1,0.41));
#423=CARTESIAN_POINT('Origin',(0.820944881889764,0.1,0.350944881889764));
#424=CARTESIAN_POINT('',(0.88,0.,0.291889763779527));
#425=CARTESIAN_POINT('',(0.703444881889764,1.09273919746571E-17,0.468444881889764));
#426=CARTESIAN_POINT('',(0.88,0.1,0.291889763779527));
#427=CARTESIAN_POINT('Origin',(0.0999999999999999,0.2,0.));
#428=CARTESIAN_POINT('',(0.159,0.2,0.));
#429=CARTESIAN_POINT('Origin',(0.0999999999999999,0.2,0.));
#430=CARTESIAN_POINT('',(0.159,0.2,0.3));
#431=CARTESIAN_POINT('',(0.159,0.2,0.));
#432=CARTESIAN_POINT('Origin',(0.0999999999999999,0.2,0.3));
#433=CARTESIAN_POINT('Origin',(0.0999999999999999,0.2,0.3));
#434=CARTESIAN_POINT('Origin',(0.78,0.2,0.));
#435=CARTESIAN_POINT('',(0.839,0.2,0.));
#436=CARTESIAN_POINT('Origin',(0.78,0.2,0.));
#437=CARTESIAN_POINT('',(0.839,0.2,0.3));
#438=CARTESIAN_POINT('',(0.839,0.2,0.));
#439=CARTESIAN_POINT('Origin',(0.78,0.2,0.3));
#440=CARTESIAN_POINT('Origin',(0.78,0.2,0.3));
#441=CARTESIAN_POINT('Origin',(0.2,0.,0.));
#442=CARTESIAN_POINT('',(0.2,0.,0.31));
#443=CARTESIAN_POINT('',(0.2,0.,0.31));
#444=CARTESIAN_POINT('',(0.2,0.,0.));
#445=CARTESIAN_POINT('',(0.2,0.,0.));
#446=CARTESIAN_POINT('',(0.2,0.1,0.));
#447=CARTESIAN_POINT('Origin',(0.68,0.,0.31));
#448=CARTESIAN_POINT('',(0.68,0.,0.));
#449=CARTESIAN_POINT('',(0.68,0.1,0.));
#450=CARTESIAN_POINT('',(0.68,0.,0.31));
#451=CARTESIAN_POINT('',(0.68,0.,0.155));
#452=CARTESIAN_POINT('',(0.68,0.,0.31));
#453=CARTESIAN_POINT('Origin',(0.2,0.,0.31));
#454=CARTESIAN_POINT('',(0.0999999999999999,0.,0.31));
#455=CARTESIAN_POINT('Origin',(0.44,0.2,0.));
#456=CARTESIAN_POINT('',(0.88,0.,0.));
#457=CARTESIAN_POINT('',(0.88,0.,0.));
#458=CARTESIAN_POINT('',(0.,0.,0.));
#459=CARTESIAN_POINT('Origin',(0.44,0.2,0.));
#460=CARTESIAN_POINT('',(0.,0.,0.));
#461=CARTESIAN_POINT('',(0.,0.,0.));
#462=CARTESIAN_POINT('',(0.,0.4,0.));
#463=CARTESIAN_POINT('Origin',(0.,0.,0.));
#464=CARTESIAN_POINT('',(0.,0.,0.));
#465=CARTESIAN_POINT('',(0.88,0.,0.));
#466=CARTESIAN_POINT('Origin',(0.88,0.,0.));
#467=CARTESIAN_POINT('Origin',(0.,0.4,0.));
#468=UNCERTAINTY_MEASURE_WITH_UNIT(LENGTH_MEASURE(0.000393700787401575),
#473,'DISTANCE_ACCURACY_VALUE',
'Maximum model space distance between geometric entities at asserted c
onnectivities');
#469=UNCERTAINTY_MEASURE_WITH_UNIT(LENGTH_MEASURE(0.000393700787401575),
#473,'DISTANCE_ACCURACY_VALUE',
'Maximum model space distance between geometric entities at asserted c
onnectivities');
#470=(
GEOMETRIC_REPRESENTATION_CONTEXT(3)
GLOBAL_UNCERTAINTY_ASSIGNED_CONTEXT((#468))
GLOBAL_UNIT_ASSIGNED_CONTEXT((#473,#477,#478))
REPRESENTATION_CONTEXT('','3D')
);
#471=(
GEOMETRIC_REPRESENTATION_CONTEXT(3)
GLOBAL_UNCERTAINTY_ASSIGNED_CONTEXT((#469))
GLOBAL_UNIT_ASSIGNED_CONTEXT((#473,#477,#478))
REPRESENTATION_CONTEXT('','3D')
);
#472=DIMENSIONAL_EXPONENTS(1.,0.,0.,0.,0.,0.,0.);
#473=(
CONVERSION_BASED_UNIT('inch',#476)
LENGTH_UNIT()
NAMED_UNIT(#472)
);
#474=(
LENGTH_UNIT()
NAMED_UNIT(*)
SI_UNIT(.MILLI.,.METRE.)
);
#475=(
LENGTH_UNIT()
NAMED_UNIT(*)
SI_UNIT($,.METRE.)
);
#476=LENGTH_MEASURE_WITH_UNIT(LENGTH_MEASURE(25.4),#474);
#477=(
NAMED_UNIT(*)
PLANE_ANGLE_UNIT()
SI_UNIT($,.RADIAN.)
);
#478=(
NAMED_UNIT(*)
SI_UNIT($,.STERADIAN.)
SOLID_ANGLE_UNIT()
);
#479=SHAPE_DEFINITION_REPRESENTATION(#480,#481);
#480=PRODUCT_DEFINITION_SHAPE('',$,#483);
#481=SHAPE_REPRESENTATION('',(#296),#470);
#482=PRODUCT_DEFINITION_CONTEXT('part definition',#487,'design');
#483=PRODUCT_DEFINITION('Rail Mount to carriage v1',
'Rail Mount to carriage v1 v3',#484,#482);
#484=PRODUCT_DEFINITION_FORMATION('',$,#489);
#485=PRODUCT_RELATED_PRODUCT_CATEGORY('Rail Mount to carriage v1 v3',
'Rail Mount to carriage v1 v3',(#489));
#486=APPLICATION_PROTOCOL_DEFINITION('international standard',
'automotive_design',2009,#487);
#487=APPLICATION_CONTEXT(
'Core Data for Automotive Mechanical Design Process');
#488=PRODUCT_CONTEXT('part definition',#487,'mechanical');
#489=PRODUCT('Rail Mount to carriage v1','Rail Mount to carriage v1 v3',
$,(#488));
#490=PRESENTATION_STYLE_ASSIGNMENT((#491));
#491=SURFACE_STYLE_USAGE(.BOTH.,#492);
#492=SURFACE_SIDE_STYLE('',(#493));
#493=SURFACE_STYLE_FILL_AREA(#494);
#494=FILL_AREA_STYLE('Steel - Satin',(#495));
#495=FILL_AREA_STYLE_COLOUR('Steel - Satin',#496);
#496=COLOUR_RGB('Steel - Satin',0.627450980392157,0.627450980392157,0.627450980392157);
ENDSEC;
END-ISO-10303-21;
