ISO-10303-21;
HEADER;
/* Generated by software containing ST-Developer
 * from STEP Tools, Inc. (www.steptools.com) 
 */

FILE_DESCRIPTION(
/* description */ (''),
/* implementation_level */ '2;1');

FILE_NAME(
/* name */ 
'C:/Users/progr/Desktop/solidcore/updated parts/Bed Magnet .step',
/* time_stamp */ '2021-01-17T11:54:45-06:00',
/* author */ (''),
/* organization */ (''),
/* preprocessor_version */ 'ST-DEVELOPER v18.1',
/* originating_system */ 'Autodesk Translation Framework v9.7.1.1290',
/* authorisation */ '');

FILE_SCHEMA (('AUTOMOTIVE_DESIGN { 1 0 10303 214 3 1 1 }'));
ENDSEC;

DATA;
#10=MECHANICAL_DESIGN_GEOMETRIC_PRESENTATION_REPRESENTATION('',(#13),#249);
#11=SHAPE_REPRESENTATION_RELATIONSHIP('SRR','None',#259,#12);
#12=ADVANCED_BREP_SHAPE_REPRESENTATION('',(#14),#248);
#13=STYLED_ITEM('',(#268),#14);
#14=MANIFOLD_SOLID_BREP('Body1',#128);
#15=SPHERICAL_SURFACE('',#161,0.160433070866142);
#16=LINE('',#225,#18);
#17=LINE('',#233,#19);
#18=VECTOR('',#182,0.0807086614173228);
#19=VECTOR('',#193,0.236220472440945);
#20=CYLINDRICAL_SURFACE('',#148,0.0807086614173228);
#21=CYLINDRICAL_SURFACE('',#153,0.236220472440945);
#22=FACE_BOUND('',#38,.T.);
#23=FACE_BOUND('',#44,.T.);
#24=FACE_BOUND('',#46,.T.);
#25=PLANE('',#146);
#26=PLANE('',#159);
#27=FACE_OUTER_BOUND('',#36,.T.);
#28=FACE_OUTER_BOUND('',#37,.T.);
#29=FACE_OUTER_BOUND('',#39,.T.);
#30=FACE_OUTER_BOUND('',#40,.T.);
#31=FACE_OUTER_BOUND('',#41,.T.);
#32=FACE_OUTER_BOUND('',#42,.T.);
#33=FACE_OUTER_BOUND('',#43,.T.);
#34=FACE_OUTER_BOUND('',#45,.T.);
#35=FACE_OUTER_BOUND('',#47,.T.);
#36=EDGE_LOOP('',(#85,#86,#87,#88));
#37=EDGE_LOOP('',(#89));
#38=EDGE_LOOP('',(#90));
#39=EDGE_LOOP('',(#91,#92,#93,#94));
#40=EDGE_LOOP('',(#95,#96,#97,#98));
#41=EDGE_LOOP('',(#99,#100,#101,#102));
#42=EDGE_LOOP('',(#103,#104,#105,#106));
#43=EDGE_LOOP('',(#107));
#44=EDGE_LOOP('',(#108));
#45=EDGE_LOOP('',(#109));
#46=EDGE_LOOP('',(#110));
#47=EDGE_LOOP('',(#111,#112,#113,#114));
#48=CIRCLE('',#143,0.0846456692913386);
#49=CIRCLE('',#144,0.00393700787401575);
#50=CIRCLE('',#145,0.0807086614173228);
#51=CIRCLE('',#147,0.232283464566929);
#52=CIRCLE('',#149,0.0807086614173228);
#53=CIRCLE('',#151,0.236220472440945);
#54=CIRCLE('',#152,0.00393700787401575);
#55=CIRCLE('',#154,0.236220472440945);
#56=CIRCLE('',#156,0.159855320613763);
#57=CIRCLE('',#157,0.00393700787401575);
#58=CIRCLE('',#158,0.163778150567475);
#59=CIRCLE('',#160,0.232283464566929);
#60=CIRCLE('',#163,0.00393700787401575);
#61=VERTEX_POINT('',#214);
#62=VERTEX_POINT('',#216);
#63=VERTEX_POINT('',#220);
#64=VERTEX_POINT('',#223);
#65=VERTEX_POINT('',#227);
#66=VERTEX_POINT('',#231);
#67=VERTEX_POINT('',#235);
#68=VERTEX_POINT('',#237);
#69=VERTEX_POINT('',#241);
#70=EDGE_CURVE('',#61,#61,#48,.T.);
#71=EDGE_CURVE('',#61,#62,#49,.T.);
#72=EDGE_CURVE('',#62,#62,#50,.T.);
#73=EDGE_CURVE('',#63,#63,#51,.T.);
#74=EDGE_CURVE('',#64,#64,#52,.T.);
#75=EDGE_CURVE('',#64,#62,#16,.T.);
#76=EDGE_CURVE('',#65,#65,#53,.T.);
#77=EDGE_CURVE('',#65,#63,#54,.T.);
#78=EDGE_CURVE('',#66,#66,#55,.T.);
#79=EDGE_CURVE('',#66,#65,#17,.T.);
#80=EDGE_CURVE('',#67,#67,#56,.T.);
#81=EDGE_CURVE('',#67,#68,#57,.T.);
#82=EDGE_CURVE('',#68,#68,#58,.T.);
#83=EDGE_CURVE('',#69,#69,#59,.T.);
#84=EDGE_CURVE('',#69,#66,#60,.T.);
#85=ORIENTED_EDGE('',*,*,#70,.T.);
#86=ORIENTED_EDGE('',*,*,#71,.T.);
#87=ORIENTED_EDGE('',*,*,#72,.T.);
#88=ORIENTED_EDGE('',*,*,#71,.F.);
#89=ORIENTED_EDGE('',*,*,#73,.F.);
#90=ORIENTED_EDGE('',*,*,#70,.F.);
#91=ORIENTED_EDGE('',*,*,#74,.T.);
#92=ORIENTED_EDGE('',*,*,#75,.T.);
#93=ORIENTED_EDGE('',*,*,#72,.F.);
#94=ORIENTED_EDGE('',*,*,#75,.F.);
#95=ORIENTED_EDGE('',*,*,#76,.T.);
#96=ORIENTED_EDGE('',*,*,#77,.T.);
#97=ORIENTED_EDGE('',*,*,#73,.T.);
#98=ORIENTED_EDGE('',*,*,#77,.F.);
#99=ORIENTED_EDGE('',*,*,#78,.F.);
#100=ORIENTED_EDGE('',*,*,#79,.T.);
#101=ORIENTED_EDGE('',*,*,#76,.F.);
#102=ORIENTED_EDGE('',*,*,#79,.F.);
#103=ORIENTED_EDGE('',*,*,#80,.T.);
#104=ORIENTED_EDGE('',*,*,#81,.T.);
#105=ORIENTED_EDGE('',*,*,#82,.T.);
#106=ORIENTED_EDGE('',*,*,#81,.F.);
#107=ORIENTED_EDGE('',*,*,#83,.F.);
#108=ORIENTED_EDGE('',*,*,#82,.F.);
#109=ORIENTED_EDGE('',*,*,#80,.F.);
#110=ORIENTED_EDGE('',*,*,#74,.F.);
#111=ORIENTED_EDGE('',*,*,#83,.T.);
#112=ORIENTED_EDGE('',*,*,#84,.T.);
#113=ORIENTED_EDGE('',*,*,#78,.T.);
#114=ORIENTED_EDGE('',*,*,#84,.F.);
#115=TOROIDAL_SURFACE('',#142,0.0846456692913386,0.00393700787401575);
#116=TOROIDAL_SURFACE('',#150,0.232283464566929,0.00393700787401575);
#117=TOROIDAL_SURFACE('',#155,0.163778150567475,0.00393700787401575);
#118=TOROIDAL_SURFACE('',#162,0.232283464566929,0.00393700787401575);
#119=ADVANCED_FACE('',(#27),#115,.T.);
#120=ADVANCED_FACE('',(#28,#22),#25,.T.);
#121=ADVANCED_FACE('',(#29),#20,.F.);
#122=ADVANCED_FACE('',(#30),#116,.T.);
#123=ADVANCED_FACE('',(#31),#21,.T.);
#124=ADVANCED_FACE('',(#32),#117,.T.);
#125=ADVANCED_FACE('',(#33,#23),#26,.T.);
#126=ADVANCED_FACE('',(#34,#24),#15,.F.);
#127=ADVANCED_FACE('',(#35),#118,.T.);
#128=CLOSED_SHELL('',(#119,#120,#121,#122,#123,#124,#125,#126,#127));
#129=DERIVED_UNIT_ELEMENT(#131,1.);
#130=DERIVED_UNIT_ELEMENT(#253,-3.);
#131=(
MASS_UNIT()
NAMED_UNIT(*)
SI_UNIT(.KILO.,.GRAM.)
);
#132=DERIVED_UNIT((#129,#130));
#133=MEASURE_REPRESENTATION_ITEM('density measure',
POSITIVE_RATIO_MEASURE(7850.),#132);
#134=PROPERTY_DEFINITION_REPRESENTATION(#139,#136);
#135=PROPERTY_DEFINITION_REPRESENTATION(#140,#137);
#136=REPRESENTATION('material name',(#138),#248);
#137=REPRESENTATION('density',(#133),#248);
#138=DESCRIPTIVE_REPRESENTATION_ITEM('Steel','Steel');
#139=PROPERTY_DEFINITION('material property','material name',#261);
#140=PROPERTY_DEFINITION('material property','density of part',#261);
#141=AXIS2_PLACEMENT_3D('placement',#212,#164,#165);
#142=AXIS2_PLACEMENT_3D('',#213,#166,#167);
#143=AXIS2_PLACEMENT_3D('',#215,#168,#169);
#144=AXIS2_PLACEMENT_3D('',#217,#170,#171);
#145=AXIS2_PLACEMENT_3D('',#218,#172,#173);
#146=AXIS2_PLACEMENT_3D('',#219,#174,#175);
#147=AXIS2_PLACEMENT_3D('',#221,#176,#177);
#148=AXIS2_PLACEMENT_3D('',#222,#178,#179);
#149=AXIS2_PLACEMENT_3D('',#224,#180,#181);
#150=AXIS2_PLACEMENT_3D('',#226,#183,#184);
#151=AXIS2_PLACEMENT_3D('',#228,#185,#186);
#152=AXIS2_PLACEMENT_3D('',#229,#187,#188);
#153=AXIS2_PLACEMENT_3D('',#230,#189,#190);
#154=AXIS2_PLACEMENT_3D('',#232,#191,#192);
#155=AXIS2_PLACEMENT_3D('',#234,#194,#195);
#156=AXIS2_PLACEMENT_3D('',#236,#196,#197);
#157=AXIS2_PLACEMENT_3D('',#238,#198,#199);
#158=AXIS2_PLACEMENT_3D('',#239,#200,#201);
#159=AXIS2_PLACEMENT_3D('',#240,#202,#203);
#160=AXIS2_PLACEMENT_3D('',#242,#204,#205);
#161=AXIS2_PLACEMENT_3D('',#243,#206,#207);
#162=AXIS2_PLACEMENT_3D('',#244,#208,#209);
#163=AXIS2_PLACEMENT_3D('',#245,#210,#211);
#164=DIRECTION('axis',(0.,0.,1.));
#165=DIRECTION('refdir',(1.,0.,0.));
#166=DIRECTION('center_axis',(1.,0.,0.));
#167=DIRECTION('ref_axis',(0.,0.,-1.));
#168=DIRECTION('center_axis',(-1.,0.,0.));
#169=DIRECTION('ref_axis',(0.,1.22464679914735E-16,1.));
#170=DIRECTION('center_axis',(0.,-1.,-1.22464679914735E-16));
#171=DIRECTION('ref_axis',(0.,-1.22464679914735E-16,1.));
#172=DIRECTION('center_axis',(1.,0.,0.));
#173=DIRECTION('ref_axis',(0.,1.22464679914735E-16,1.));
#174=DIRECTION('center_axis',(-1.,0.,0.));
#175=DIRECTION('ref_axis',(0.,0.,1.));
#176=DIRECTION('center_axis',(1.,0.,0.));
#177=DIRECTION('ref_axis',(0.,1.22464679914735E-16,1.));
#178=DIRECTION('center_axis',(1.,0.,0.));
#179=DIRECTION('ref_axis',(0.,0.,-1.));
#180=DIRECTION('center_axis',(1.,0.,0.));
#181=DIRECTION('ref_axis',(0.,0.,-1.));
#182=DIRECTION('',(-1.,0.,0.));
#183=DIRECTION('center_axis',(1.,0.,0.));
#184=DIRECTION('ref_axis',(0.,0.,-1.));
#185=DIRECTION('center_axis',(-1.,0.,0.));
#186=DIRECTION('ref_axis',(0.,1.22464679914735E-16,1.));
#187=DIRECTION('center_axis',(0.,-1.,-1.22464679914735E-16));
#188=DIRECTION('ref_axis',(0.,-1.22464679914735E-16,1.));
#189=DIRECTION('center_axis',(1.,0.,0.));
#190=DIRECTION('ref_axis',(0.,0.,-1.));
#191=DIRECTION('center_axis',(1.,0.,0.));
#192=DIRECTION('ref_axis',(0.,1.22464679914735E-16,1.));
#193=DIRECTION('',(-1.,0.,0.));
#194=DIRECTION('center_axis',(1.,0.,0.));
#195=DIRECTION('ref_axis',(0.,0.,-1.));
#196=DIRECTION('center_axis',(-1.,0.,0.));
#197=DIRECTION('ref_axis',(0.,1.22464679914735E-16,1.));
#198=DIRECTION('center_axis',(0.,-1.,-1.22464679914735E-16));
#199=DIRECTION('ref_axis',(0.,-1.22464679914735E-16,1.));
#200=DIRECTION('center_axis',(1.,0.,0.));
#201=DIRECTION('ref_axis',(0.,1.22464679914735E-16,1.));
#202=DIRECTION('center_axis',(1.,0.,0.));
#203=DIRECTION('ref_axis',(0.,0.,-1.));
#204=DIRECTION('center_axis',(-1.,0.,0.));
#205=DIRECTION('ref_axis',(0.,1.22464679914735E-16,1.));
#206=DIRECTION('center_axis',(-6.48765295064701E-17,4.68864440245664E-32,
1.));
#207=DIRECTION('ref_axis',(-1.,7.6571373978539E-16,0.));
#208=DIRECTION('center_axis',(1.,0.,0.));
#209=DIRECTION('ref_axis',(0.,0.,-1.));
#210=DIRECTION('center_axis',(0.,-1.,-1.22464679914735E-16));
#211=DIRECTION('ref_axis',(0.,-1.22464679914735E-16,1.));
#212=CARTESIAN_POINT('',(0.,0.,0.));
#213=CARTESIAN_POINT('Origin',(-0.143700787401575,0.,0.));
#214=CARTESIAN_POINT('',(-0.147637795275591,-1.03661047959323E-17,0.0846456692913386));
#215=CARTESIAN_POINT('Origin',(-0.147637795275591,0.,0.));
#216=CARTESIAN_POINT('',(-0.143700787401575,-9.88396038681919E-18,0.0807086614173228));
#217=CARTESIAN_POINT('Origin',(-0.143700787401575,-1.03661047959323E-17,
0.0846456692913386));
#218=CARTESIAN_POINT('Origin',(-0.143700787401575,0.,0.));
#219=CARTESIAN_POINT('Origin',(-0.147637795275591,0.,-0.236220472440945));
#220=CARTESIAN_POINT('',(-0.147637795275591,-2.84465201376747E-17,0.232283464566929));
#221=CARTESIAN_POINT('Origin',(-0.147637795275591,0.,0.));
#222=CARTESIAN_POINT('Origin',(-0.138145808478375,0.,0.));
#223=CARTESIAN_POINT('',(-0.128653821681159,-9.88396038681919E-18,0.0807086614173228));
#224=CARTESIAN_POINT('Origin',(-0.128653821681159,0.,0.));
#225=CARTESIAN_POINT('',(-0.138145808478375,-9.88396038681919E-18,0.0807086614173228));
#226=CARTESIAN_POINT('Origin',(-0.143700787401575,0.,0.));
#227=CARTESIAN_POINT('',(-0.143700787401575,-2.89286645467879E-17,0.236220472440945));
#228=CARTESIAN_POINT('Origin',(-0.143700787401575,0.,0.));
#229=CARTESIAN_POINT('Origin',(-0.143700787401575,-2.84465201376747E-17,
0.232283464566929));
#230=CARTESIAN_POINT('Origin',(-0.0738188976377953,0.,0.));
#231=CARTESIAN_POINT('',(-0.00393700787401575,-2.89286645467879E-17,0.236220472440945));
#232=CARTESIAN_POINT('Origin',(-0.00393700787401575,0.,0.));
#233=CARTESIAN_POINT('',(-0.0738188976377953,-2.89286645467879E-17,0.236220472440945));
#234=CARTESIAN_POINT('Origin',(-0.00393700787401575,0.,0.));
#235=CARTESIAN_POINT('',(-0.00360318733192445,-1.95766306716319E-17,0.159855320613763));
#236=CARTESIAN_POINT('Origin',(-0.00360318733192445,0.,0.));
#237=CARTESIAN_POINT('',(0.,-2.00570387862731E-17,0.163778150567475));
#238=CARTESIAN_POINT('Origin',(-0.00393700787401575,-2.00570387862731E-17,
0.163778150567475));
#239=CARTESIAN_POINT('Origin',(0.,0.,0.));
#240=CARTESIAN_POINT('Origin',(0.,0.,-0.160121111138958));
#241=CARTESIAN_POINT('',(0.,-2.84465201376747E-17,0.232283464566929));
#242=CARTESIAN_POINT('Origin',(0.,0.,0.));
#243=CARTESIAN_POINT('Origin',(0.00999999975829612,0.,0.));
#244=CARTESIAN_POINT('Origin',(-0.00393700787401575,0.,0.));
#245=CARTESIAN_POINT('Origin',(-0.00393700787401575,-2.84465201376747E-17,
0.232283464566929));
#246=UNCERTAINTY_MEASURE_WITH_UNIT(LENGTH_MEASURE(0.000393700787401575),
#251,'DISTANCE_ACCURACY_VALUE',
'Maximum model space distance between geometric entities at asserted c
onnectivities');
#247=UNCERTAINTY_MEASURE_WITH_UNIT(LENGTH_MEASURE(0.000393700787401575),
#251,'DISTANCE_ACCURACY_VALUE',
'Maximum model space distance between geometric entities at asserted c
onnectivities');
#248=(
GEOMETRIC_REPRESENTATION_CONTEXT(3)
GLOBAL_UNCERTAINTY_ASSIGNED_CONTEXT((#246))
GLOBAL_UNIT_ASSIGNED_CONTEXT((#251,#255,#256))
REPRESENTATION_CONTEXT('','3D')
);
#249=(
GEOMETRIC_REPRESENTATION_CONTEXT(3)
GLOBAL_UNCERTAINTY_ASSIGNED_CONTEXT((#247))
GLOBAL_UNIT_ASSIGNED_CONTEXT((#251,#255,#256))
REPRESENTATION_CONTEXT('','3D')
);
#250=DIMENSIONAL_EXPONENTS(1.,0.,0.,0.,0.,0.,0.);
#251=(
CONVERSION_BASED_UNIT('inch',#254)
LENGTH_UNIT()
NAMED_UNIT(#250)
);
#252=(
LENGTH_UNIT()
NAMED_UNIT(*)
SI_UNIT(.MILLI.,.METRE.)
);
#253=(
LENGTH_UNIT()
NAMED_UNIT(*)
SI_UNIT($,.METRE.)
);
#254=LENGTH_MEASURE_WITH_UNIT(LENGTH_MEASURE(25.4),#252);
#255=(
NAMED_UNIT(*)
PLANE_ANGLE_UNIT()
SI_UNIT($,.RADIAN.)
);
#256=(
NAMED_UNIT(*)
SI_UNIT($,.STERADIAN.)
SOLID_ANGLE_UNIT()
);
#257=SHAPE_DEFINITION_REPRESENTATION(#258,#259);
#258=PRODUCT_DEFINITION_SHAPE('',$,#261);
#259=SHAPE_REPRESENTATION('',(#141),#248);
#260=PRODUCT_DEFINITION_CONTEXT('part definition',#265,'design');
#261=PRODUCT_DEFINITION('Bed Magnet Bowle','Bed Magnet Bowle v1',#262,#260);
#262=PRODUCT_DEFINITION_FORMATION('',$,#267);
#263=PRODUCT_RELATED_PRODUCT_CATEGORY('Bed Magnet Bowle v1',
'Bed Magnet Bowle v1',(#267));
#264=APPLICATION_PROTOCOL_DEFINITION('international standard',
'automotive_design',2009,#265);
#265=APPLICATION_CONTEXT(
'Core Data for Automotive Mechanical Design Process');
#266=PRODUCT_CONTEXT('part definition',#265,'mechanical');
#267=PRODUCT('Bed Magnet Bowle','Bed Magnet Bowle v1',$,(#266));
#268=PRESENTATION_STYLE_ASSIGNMENT((#269));
#269=SURFACE_STYLE_USAGE(.BOTH.,#270);
#270=SURFACE_SIDE_STYLE('',(#271));
#271=SURFACE_STYLE_FILL_AREA(#272);
#272=FILL_AREA_STYLE('Steel - Satin',(#273));
#273=FILL_AREA_STYLE_COLOUR('Steel - Satin',#274);
#274=COLOUR_RGB('Steel - Satin',0.627450980392157,0.627450980392157,0.627450980392157);
ENDSEC;
END-ISO-10303-21;
